ISO-10303-21;
HEADER;
FILE_DESCRIPTION (( 'STEP AP203' ),
    '1' );
FILE_NAME ('Q-QZWP-R4-12.7-532-M.STEP',
    '2020-12-23T01:24:02',
    ( '' ),
    ( '' ),
    'SwSTEP 2.0',
    'SolidWorks 2020',
    '' );
FILE_SCHEMA (( 'CONFIG_CONTROL_DESIGN' ));
ENDSEC;

DATA;
#1 = ORIENTED_EDGE ( 'NONE', *, *, #295, .T. ) ;
#2 = CARTESIAN_POINT ( 'NONE',  ( -1.614212418857619014, 1.555301434917138433E-15, -12.69999999999999929 ) ) ;
#3 = DATE_AND_TIME ( #186, #178 ) ;
#4 = CC_DESIGN_SECURITY_CLASSIFICATION ( #89, ( #189 ) ) ;
#5 = EDGE_LOOP ( 'NONE', ( #83, #85 ) ) ;
#6 = APPROVAL_STATUS ( 'not_yet_approved' ) ;
#7 = PERSON_AND_ORGANIZATION ( #325, #71 ) ;
#8 = ORIENTED_EDGE ( 'NONE', *, *, #195, .T. ) ;
#9 = PERSON_AND_ORGANIZATION ( #325, #71 ) ;
#10 = DATE_AND_TIME ( #38, #201 ) ;
#11 = CIRCLE ( 'NONE', #159, 6.349999999999999645 ) ;
#12 = DIRECTION ( 'NONE',  ( 0.000000000000000000, 0.000000000000000000, 1.000000000000000000 ) ) ;
#13 = APPROVAL_DATE_TIME ( #10, #122 ) ;
#14 = ORIENTED_EDGE ( 'NONE', *, *, #253, .T. ) ;
#15 = PERSON_AND_ORGANIZATION ( #325, #71 ) ;
#16 = ORIENTED_EDGE ( 'NONE', *, *, #258, .T. ) ;
#17 = DIRECTION ( 'NONE',  ( -1.000000000000000000, -0.000000000000000000, -0.000000000000000000 ) ) ;
#18 = APPLICATION_PROTOCOL_DEFINITION ( 'international standard', 'config_control_design', 1994, #209 ) ;
#19 = CIRCLE ( 'NONE', #206, 6.349999999999999645 ) ;
#20 = EDGE_CURVE ( 'NONE', #160, #185, #11, .T. ) ;
#21 = ORIENTED_EDGE ( 'NONE', *, *, #286, .T. ) ;
#22 = AXIS2_PLACEMENT_3D ( 'NONE', #180, #303, #278 ) ;
#23 = ADVANCED_FACE ( 'NONE', ( #315 ), #192, .F. ) ;
#24 = FACE_BOUND ( 'NONE', #318, .T. ) ;
#25 = DIRECTION ( 'NONE',  ( -1.000000000000000000, -0.000000000000000000, -0.000000000000000000 ) ) ;
#26 = ADVANCED_FACE ( 'NONE', ( #268 ), #167, .T. ) ;
#27 = DIRECTION ( 'NONE',  ( 0.000000000000000000, 0.000000000000000000, 1.000000000000000000 ) ) ;
#28 = DIRECTION ( 'NONE',  ( -1.000000000000000000, 0.000000000000000000, -0.000000000000000000 ) ) ;
#29 = AXIS2_PLACEMENT_3D ( 'NONE', #267, #94, #40 ) ;
#30 = ORIENTED_EDGE ( 'NONE', *, *, #52, .F. ) ;
#31 = VERTEX_POINT ( 'NONE', #70 ) ;
#32 = ORIENTED_EDGE ( 'NONE', *, *, #199, .T. ) ;
#33 = PRODUCT_DEFINITION_SHAPE ( 'NONE', 'NONE',  #130 ) ;
#34 = SECURITY_CLASSIFICATION_LEVEL ( 'unclassified' ) ;
#35 = EDGE_CURVE ( 'NONE', #246, #283, #198, .T. ) ;
#36 = ORIENTED_EDGE ( 'NONE', *, *, #286, .F. ) ;
#37 = COORDINATED_UNIVERSAL_TIME_OFFSET ( 8, 0, .AHEAD. ) ;
#38 = CALENDAR_DATE ( 2020, 23, 12 ) ;
#39 = EDGE_LOOP ( 'NONE', ( #213, #1, #281, #30 ) ) ;
#40 = DIRECTION ( 'NONE',  ( -0.000000000000000000, 0.000000000000000000, 1.000000000000000000 ) ) ;
#41 = ORIENTED_EDGE ( 'NONE', *, *, #93, .T. ) ;
#42 = CIRCLE ( 'NONE', #76, 6.349999999999999645 ) ;
#43 = EDGE_LOOP ( 'NONE', ( #143, #215, #288, #135 ) ) ;
#44 = DIRECTION ( 'NONE',  ( -1.000000000000000000, -0.000000000000000000, -0.000000000000000000 ) ) ;
#45 = DIRECTION ( 'NONE',  ( -1.000000000000000000, -0.000000000000000000, -0.000000000000000000 ) ) ;
#46 = VECTOR ( 'NONE', #168, 1000.000000000000000 ) ;
#47 = CC_DESIGN_PERSON_AND_ORGANIZATION_ASSIGNMENT ( #7, #293, ( #189 ) ) ;
#48 = CC_DESIGN_APPROVAL ( #211, ( #189 ) ) ;
#49 = PLANE ( 'NONE',  #236 ) ;
#50 = CARTESIAN_POINT ( 'NONE',  ( -1.500000000000000444, 6.349999999999999645, 0.000000000000000000 ) ) ;
#51 = AXIS2_PLACEMENT_3D ( 'NONE', #134, #131, #103 ) ;
#52 = EDGE_CURVE ( 'NONE', #271, #185, #64, .T. ) ;
#53 = VERTEX_POINT ( 'NONE', #298 ) ;
#54 = CIRCLE ( 'NONE', #58, 6.349999999999999645 ) ;
#55 = APPROVAL_STATUS ( 'not_yet_approved' ) ;
#56 = VERTEX_POINT ( 'NONE', #124 ) ;
#57 = ORIENTED_EDGE ( 'NONE', *, *, #230, .T. ) ;
#58 = AXIS2_PLACEMENT_3D ( 'NONE', #66, #222, #217 ) ;
#59 = EDGE_CURVE ( 'NONE', #271, #138, #19, .T. ) ;
#60 = EDGE_LOOP ( 'NONE', ( #240, #242 ) ) ;
#61 = CARTESIAN_POINT ( 'NONE',  ( 3.000000000000000000, 0.000000000000000000, 0.000000000000000000 ) ) ;
#62 = PERSON_AND_ORGANIZATION ( #325, #71 ) ;
#63 = APPROVAL_PERSON_ORGANIZATION ( #15, #107, #214 ) ;
#64 = LINE ( 'NONE', #190, #171 ) ;
#65 = PERSON_AND_ORGANIZATION_ROLE ( 'creator' ) ;
#66 = CARTESIAN_POINT ( 'NONE',  ( -2.999999999999999556, 0.000000000000000000, 0.000000000000000000 ) ) ;
#67 = DATE_TIME_ROLE ( 'creation_date' ) ;
#68 = UNCERTAINTY_MEASURE_WITH_UNIT (LENGTH_MEASURE( 1.000000000000000082E-05 ), #149, 'distance_accuracy_value', 'NONE');
#69 = DIRECTION ( 'NONE',  ( -1.000000000000000000, -0.000000000000000000, -0.000000000000000000 ) ) ;
#70 = CARTESIAN_POINT ( 'NONE',  ( 3.000000000000000888, 7.776507174585692163E-16, -6.349999999999999645 ) ) ;
#71 = ORGANIZATION ( 'UNSPECIFIED', 'UNSPECIFIED', '' ) ;
#72 = ADVANCED_BREP_SHAPE_REPRESENTATION ( 'Q-QZWP-R4-12.7-532-M', ( #229, #270 ), #102 ) ;
#73 = CARTESIAN_POINT ( 'NONE',  ( -3.000000000000000000, 0.000000000000000000, 0.000000000000000000 ) ) ;
#74 = DIRECTION ( 'NONE',  ( 0.000000000000000000, 0.000000000000000000, -1.000000000000000000 ) ) ;
#75 = FACE_OUTER_BOUND ( 'NONE', #157, .T. ) ;
#76 = AXIS2_PLACEMENT_3D ( 'NONE', #207, #25, #330 ) ;
#77 = CIRCLE ( 'NONE', #97, 6.349999999999999645 ) ;
#78 = DIRECTION ( 'NONE',  ( 0.000000000000000000, 0.000000000000000000, -1.000000000000000000 ) ) ;
#79 = CARTESIAN_POINT ( 'NONE',  ( 3.000000000000000000, 12.69999999999999929, 0.000000000000000000 ) ) ;
#80 = CARTESIAN_POINT ( 'NONE',  ( -1.614212418857619014, 7.776507174585692163E-16, -6.349999999999999645 ) ) ;
#81 = CARTESIAN_POINT ( 'NONE',  ( -1.614212418857619014, 0.000000000000000000, 0.000000000000000000 ) ) ;
#82 = CIRCLE ( 'NONE', #126, 6.349999999999999645 ) ;
#83 = ORIENTED_EDGE ( 'NONE', *, *, #169, .F. ) ;
#84 = DIRECTION ( 'NONE',  ( 0.000000000000000000, 0.000000000000000000, 1.000000000000000000 ) ) ;
#85 = ORIENTED_EDGE ( 'NONE', *, *, #307, .F. ) ;
#86 = DIRECTION ( 'NONE',  ( -1.000000000000000000, -0.000000000000000000, -0.000000000000000000 ) ) ;
#87 = CARTESIAN_POINT ( 'NONE',  ( -1.614212418857619014, 0.000000000000000000, 12.69999999999999929 ) ) ;
#88 = CALENDAR_DATE ( 2020, 23, 12 ) ;
#89 = SECURITY_CLASSIFICATION ( '', '', #34 ) ;
#90 = ORIENTED_EDGE ( 'NONE', *, *, #230, .F. ) ;
#91 = DATE_AND_TIME ( #289, #113 ) ;
#92 = ORIENTED_EDGE ( 'NONE', *, *, #199, .F. ) ;
#93 = EDGE_CURVE ( 'NONE', #31, #56, #147, .T. ) ;
#94 = DIRECTION ( 'NONE',  ( -1.000000000000000000, 0.000000000000000000, -0.000000000000000000 ) ) ;
#95 = DIRECTION ( 'NONE',  ( 1.000000000000000000, 0.000000000000000000, 0.000000000000000000 ) ) ;
#96 = DIRECTION ( 'NONE',  ( 0.000000000000000000, 0.000000000000000000, -1.000000000000000000 ) ) ;
#97 = AXIS2_PLACEMENT_3D ( 'NONE', #310, #255, #127 ) ;
#98 = EDGE_CURVE ( 'NONE', #185, #160, #54, .T. ) ;
#99 = CYLINDRICAL_SURFACE ( 'NONE', #109, 6.349999999999999645 ) ;
#100 = DIRECTION ( 'NONE',  ( 0.000000000000000000, 0.000000000000000000, 1.000000000000000000 ) ) ;
#101 = DIRECTION ( 'NONE',  ( -1.000000000000000000, -0.000000000000000000, -0.000000000000000000 ) ) ;
#102 =( GEOMETRIC_REPRESENTATION_CONTEXT ( 3 ) GLOBAL_UNCERTAINTY_ASSIGNED_CONTEXT ( ( #68 ) ) GLOBAL_UNIT_ASSIGNED_CONTEXT ( ( #149, #272, #223 ) ) REPRESENTATION_CONTEXT ( 'NONE', 'WORKASPACE' ) );
#103 = DIRECTION ( 'NONE',  ( 0.000000000000000000, 0.000000000000000000, 1.000000000000000000 ) ) ;
#104 = DIRECTION ( 'NONE',  ( -1.000000000000000000, -0.000000000000000000, -0.000000000000000000 ) ) ;
#105 = EDGE_CURVE ( 'NONE', #53, #283, #144, .T. ) ;
#106 = CARTESIAN_POINT ( 'NONE',  ( -3.000000000000000000, 0.000000000000000000, 0.000000000000000000 ) ) ;
#107 = APPROVAL ( #6, 'UNSPECIFIED' ) ;
#108 = CARTESIAN_POINT ( 'NONE',  ( -1.500000000000000444, 0.000000000000000000, 0.000000000000000000 ) ) ;
#109 = AXIS2_PLACEMENT_3D ( 'NONE', #172, #151, #202 ) ;
#110 = DIRECTION ( 'NONE',  ( -1.000000000000000000, -0.000000000000000000, -0.000000000000000000 ) ) ;
#111 = AXIS2_PLACEMENT_3D ( 'NONE', #106, #200, #84 ) ;
#112 = ORIENTED_EDGE ( 'NONE', *, *, #35, .F. ) ;
#113 = LOCAL_TIME ( 9, 24, 2.000000000000000000, #285 ) ;
#114 = APPROVAL_DATE_TIME ( #3, #211 ) ;
#115 = ORIENTED_EDGE ( 'NONE', *, *, #262, .F. ) ;
#116 = COORDINATED_UNIVERSAL_TIME_OFFSET ( 8, 0, .AHEAD. ) ;
#117 = CARTESIAN_POINT ( 'NONE',  ( -1.614212418857619014, 0.000000000000000000, 0.000000000000000000 ) ) ;
#118 = APPLICATION_PROTOCOL_DEFINITION ( 'international standard', 'config_control_design', 1994, #125 ) ;
#119 = SHAPE_DEFINITION_REPRESENTATION ( #33, #72 ) ;
#120 = ORIENTED_EDGE ( 'NONE', *, *, #98, .T. ) ;
#121 = EDGE_LOOP ( 'NONE', ( #90, #92 ) ) ;
#122 = APPROVAL ( #55, 'UNSPECIFIED' ) ;
#123 = FACE_BOUND ( 'NONE', #196, .T. ) ;
#124 = CARTESIAN_POINT ( 'NONE',  ( 1.500000000000000888, 7.776507174585692163E-16, -6.349999999999999645 ) ) ;
#125 = APPLICATION_CONTEXT ( 'configuration controlled 3d designs of mechanical parts and assemblies' ) ;
#126 = AXIS2_PLACEMENT_3D ( 'NONE', #108, #208, #308 ) ;
#127 = DIRECTION ( 'NONE',  ( 0.000000000000000000, 0.000000000000000000, 1.000000000000000000 ) ) ;
#128 = CLOSED_SHELL ( 'NONE', ( #300, #234, #327, #140, #175, #23, #316, #26, #183, #205 ) ) ;
#129 = DIRECTION ( 'NONE',  ( -1.000000000000000000, -0.000000000000000000, -0.000000000000000000 ) ) ;
#130 = PRODUCT_DEFINITION ( 'UNKNOWN', '', #189, #226 ) ;
#131 = DIRECTION ( 'NONE',  ( -1.000000000000000000, -0.000000000000000000, -0.000000000000000000 ) ) ;
#132 = CARTESIAN_POINT ( 'NONE',  ( -1.500000000000000444, 0.000000000000000000, 6.349999999999999645 ) ) ;
#133 = CARTESIAN_POINT ( 'NONE',  ( 3.000000000000000888, 0.000000000000000000, 6.349999999999999645 ) ) ;
#134 = CARTESIAN_POINT ( 'NONE',  ( 1.500000000000000888, 0.000000000000000000, 0.000000000000000000 ) ) ;
#135 = ORIENTED_EDGE ( 'NONE', *, *, #105, .F. ) ;
#136 = AXIS2_PLACEMENT_3D ( 'NONE', #269, #44, #197 ) ;
#137 = PRODUCT ( 'Q-QZWP-R4-12.7-532-M', 'Q-QZWP-R4-12.7-532-M', '', ( #193 ) ) ;
#138 = VERTEX_POINT ( 'NONE', #294 ) ;
#139 = COORDINATED_UNIVERSAL_TIME_OFFSET ( 8, 0, .AHEAD. ) ;
#140 = ADVANCED_FACE ( 'NONE', ( #165 ), #320, .F. ) ;
#141 = CIRCLE ( 'NONE', #224, 12.69999999999999929 ) ;
#142 = ORIENTED_EDGE ( 'NONE', *, *, #169, .T. ) ;
#143 = ORIENTED_EDGE ( 'NONE', *, *, #305, .F. ) ;
#144 = CIRCLE ( 'NONE', #231, 12.69999999999999929 ) ;
#145 = DATE_AND_TIME ( #163, #250 ) ;
#146 = DIRECTION ( 'NONE',  ( -1.000000000000000000, -0.000000000000000000, -0.000000000000000000 ) ) ;
#147 = LINE ( 'NONE', #301, #46 ) ;
#148 = CARTESIAN_POINT ( 'NONE',  ( -2.999999999999999556, 0.000000000000000000, 0.000000000000000000 ) ) ;
#149 =( LENGTH_UNIT ( ) NAMED_UNIT ( * ) SI_UNIT ( .MILLI., .METRE. ) );
#150 = DIRECTION ( 'NONE',  ( 0.000000000000000000, 0.000000000000000000, 1.000000000000000000 ) ) ;
#151 = DIRECTION ( 'NONE',  ( -1.000000000000000000, -0.000000000000000000, -0.000000000000000000 ) ) ;
#152 = DIRECTION ( 'NONE',  ( -1.000000000000000000, -0.000000000000000000, -0.000000000000000000 ) ) ;
#153 = VECTOR ( 'NONE', #101, 1000.000000000000000 ) ;
#154 = FACE_OUTER_BOUND ( 'NONE', #60, .T. ) ;
#155 = ORIENTED_EDGE ( 'NONE', *, *, #105, .T. ) ;
#156 = VECTOR ( 'NONE', #86, 1000.000000000000000 ) ;
#157 = EDGE_LOOP ( 'NONE', ( #164, #115, #16, #57 ) ) ;
#158 = ORIENTED_EDGE ( 'NONE', *, *, #20, .F. ) ;
#159 = AXIS2_PLACEMENT_3D ( 'NONE', #148, #146, #291 ) ;
#160 = VERTEX_POINT ( 'NONE', #323 ) ;
#161 = PERSON_AND_ORGANIZATION_ROLE ( 'design_owner' ) ;
#162 = AXIS2_PLACEMENT_3D ( 'NONE', #79, #28, #331 ) ;
#163 = CALENDAR_DATE ( 2020, 23, 12 ) ;
#164 = ORIENTED_EDGE ( 'NONE', *, *, #93, .F. ) ;
#165 = FACE_OUTER_BOUND ( 'NONE', #121, .T. ) ;
#166 = COORDINATED_UNIVERSAL_TIME_OFFSET ( 8, 0, .AHEAD. ) ;
#167 = CYLINDRICAL_SURFACE ( 'NONE', #248, 12.69999999999999929 ) ;
#168 = DIRECTION ( 'NONE',  ( -1.000000000000000000, -0.000000000000000000, -0.000000000000000000 ) ) ;
#169 = EDGE_CURVE ( 'NONE', #246, #218, #287, .T. ) ;
#170 = CARTESIAN_POINT ( 'NONE',  ( 3.000000000000000000, 0.000000000000000000, 0.000000000000000000 ) ) ;
#171 = VECTOR ( 'NONE', #273, 1000.000000000000000 ) ;
#172 = CARTESIAN_POINT ( 'NONE',  ( -1.614212418857619014, 0.000000000000000000, 0.000000000000000000 ) ) ;
#173 = VECTOR ( 'NONE', #110, 1000.000000000000000 ) ;
#174 = LINE ( 'NONE', #2, #156 ) ;
#175 = ADVANCED_FACE ( 'NONE', ( #75 ), #99, .F. ) ;
#176 = CYLINDRICAL_SURFACE ( 'NONE', #22, 12.69999999999999929 ) ;
#177 = CC_DESIGN_DATE_AND_TIME_ASSIGNMENT ( #145, #212, ( #89 ) ) ;
#178 = LOCAL_TIME ( 9, 24, 2.000000000000000000, #166 ) ;
#179 = EDGE_LOOP ( 'NONE', ( #21, #155 ) ) ;
#180 = CARTESIAN_POINT ( 'NONE',  ( -1.614212418857619014, 0.000000000000000000, 0.000000000000000000 ) ) ;
#181 = ORIENTED_EDGE ( 'NONE', *, *, #253, .F. ) ;
#182 = PERSON_AND_ORGANIZATION ( #325, #71 ) ;
#183 = ADVANCED_FACE ( 'NONE', ( #251, #24 ), #252, .F. ) ;
#184 = ORIENTED_EDGE ( 'NONE', *, *, #52, .T. ) ;
#185 = VERTEX_POINT ( 'NONE', #232 ) ;
#186 = CALENDAR_DATE ( 2020, 23, 12 ) ;
#187 = VERTEX_POINT ( 'NONE', #133 ) ;
#188 = DATE_AND_TIME ( #88, #259 ) ;
#189 = PRODUCT_DEFINITION_FORMATION_WITH_SPECIFIED_SOURCE ( 'ANY', '', #137, .NOT_KNOWN. ) ;
#190 = CARTESIAN_POINT ( 'NONE',  ( -1.614212418857619014, 0.000000000000000000, 6.349999999999999645 ) ) ;
#191 = APPROVAL_ROLE ( '' ) ;
#192 = CYLINDRICAL_SURFACE ( 'NONE', #314, 6.349999999999999645 ) ;
#193 = MECHANICAL_CONTEXT ( 'NONE', #209, 'mechanical' ) ;
#194 = DIRECTION ( 'NONE',  ( 0.000000000000000000, 0.000000000000000000, 1.000000000000000000 ) ) ;
#195 = EDGE_CURVE ( 'NONE', #138, #271, #82, .T. ) ;
#196 = EDGE_LOOP ( 'NONE', ( #313, #158 ) ) ;
#197 = DIRECTION ( 'NONE',  ( 0.000000000000000000, 0.000000000000000000, 1.000000000000000000 ) ) ;
#198 = LINE ( 'NONE', #87, #322 ) ;
#199 = EDGE_CURVE ( 'NONE', #56, #235, #309, .T. ) ;
#200 = DIRECTION ( 'NONE',  ( -1.000000000000000000, -0.000000000000000000, -0.000000000000000000 ) ) ;
#201 = LOCAL_TIME ( 9, 24, 2.000000000000000000, #139 ) ;
#202 = DIRECTION ( 'NONE',  ( 0.000000000000000000, 0.000000000000000000, 1.000000000000000000 ) ) ;
#203 = LINE ( 'NONE', #328, #173 ) ;
#204 = DIRECTION ( 'NONE',  ( 0.000000000000000000, 0.000000000000000000, 1.000000000000000000 ) ) ;
#205 = ADVANCED_FACE ( 'NONE', ( #154 ), #49, .F. ) ;
#206 = AXIS2_PLACEMENT_3D ( 'NONE', #220, #249, #96 ) ;
#207 = CARTESIAN_POINT ( 'NONE',  ( 3.000000000000000888, 0.000000000000000000, 0.000000000000000000 ) ) ;
#208 = DIRECTION ( 'NONE',  ( 1.000000000000000000, 0.000000000000000000, 0.000000000000000000 ) ) ;
#209 = APPLICATION_CONTEXT ( 'configuration controlled 3d designs of mechanical parts and assemblies' ) ;
#210 = CC_DESIGN_APPROVAL ( #107, ( #130 ) ) ;
#211 = APPROVAL ( #266, 'UNSPECIFIED' ) ;
#212 = DATE_TIME_ROLE ( 'classification_date' ) ;
#213 = ORIENTED_EDGE ( 'NONE', *, *, #59, .T. ) ;
#214 = APPROVAL_ROLE ( '' ) ;
#215 = ORIENTED_EDGE ( 'NONE', *, *, #307, .T. ) ;
#216 = CC_DESIGN_PERSON_AND_ORGANIZATION_ASSIGNMENT ( #62, #241, ( #89 ) ) ;
#217 = DIRECTION ( 'NONE',  ( 0.000000000000000000, 0.000000000000000000, 1.000000000000000000 ) ) ;
#218 = VERTEX_POINT ( 'NONE', #332 ) ;
#219 = FACE_OUTER_BOUND ( 'NONE', #179, .T. ) ;
#220 = CARTESIAN_POINT ( 'NONE',  ( -1.500000000000000444, 0.000000000000000000, 0.000000000000000000 ) ) ;
#221 = PLANE ( 'NONE',  #334 ) ;
#222 = DIRECTION ( 'NONE',  ( -1.000000000000000000, -0.000000000000000000, -0.000000000000000000 ) ) ;
#223 =( NAMED_UNIT ( * ) SI_UNIT ( $, .STERADIAN. ) SOLID_ANGLE_UNIT ( ) );
#224 = AXIS2_PLACEMENT_3D ( 'NONE', #61, #257, #194 ) ;
#225 = CARTESIAN_POINT ( 'NONE',  ( 3.000000000000000888, 0.000000000000000000, 0.000000000000000000 ) ) ;
#226 = DESIGN_CONTEXT ( 'detailed design', #125, 'design' ) ;
#227 = CARTESIAN_POINT ( 'NONE',  ( 1.500000000000000888, 0.000000000000000000, 6.349999999999999645 ) ) ;
#228 = DIRECTION ( 'NONE',  ( 1.000000000000000000, 0.000000000000000000, 0.000000000000000000 ) ) ;
#229 = MANIFOLD_SOLID_BREP ( 'Ðý×', #128 ) ;
#230 = EDGE_CURVE ( 'NONE', #235, #56, #77, .T. ) ;
#231 = AXIS2_PLACEMENT_3D ( 'NONE', #73, #17, #317 ) ;
#232 = CARTESIAN_POINT ( 'NONE',  ( -2.999999999999999556, 0.000000000000000000, 6.349999999999999645 ) ) ;
#233 = ORIENTED_EDGE ( 'NONE', *, *, #262, .T. ) ;
#234 = ADVANCED_FACE ( 'NONE', ( #254 ), #306, .F. ) ;
#235 = VERTEX_POINT ( 'NONE', #227 ) ;
#236 = AXIS2_PLACEMENT_3D ( 'NONE', #50, #228, #78 ) ;
#237 = PERSON_AND_ORGANIZATION ( #325, #71 ) ;
#238 = ORIENTED_EDGE ( 'NONE', *, *, #305, .T. ) ;
#239 = CC_DESIGN_PERSON_AND_ORGANIZATION_ASSIGNMENT ( #9, #263, ( #130 ) ) ;
#240 = ORIENTED_EDGE ( 'NONE', *, *, #59, .F. ) ;
#241 = PERSON_AND_ORGANIZATION_ROLE ( 'classification_officer' ) ;
#242 = ORIENTED_EDGE ( 'NONE', *, *, #195, .F. ) ;
#243 = CC_DESIGN_PERSON_AND_ORGANIZATION_ASSIGNMENT ( #182, #161, ( #137 ) ) ;
#244 = EDGE_LOOP ( 'NONE', ( #181, #41, #32, #256 ) ) ;
#245 = CARTESIAN_POINT ( 'NONE',  ( -3.000000000000000000, 6.349999999999999645, 0.000000000000000000 ) ) ;
#246 = VERTEX_POINT ( 'NONE', #280 ) ;
#247 = CC_DESIGN_DATE_AND_TIME_ASSIGNMENT ( #188, #67, ( #130 ) ) ;
#248 = AXIS2_PLACEMENT_3D ( 'NONE', #117, #69, #150 ) ;
#249 = DIRECTION ( 'NONE',  ( 1.000000000000000000, 0.000000000000000000, 0.000000000000000000 ) ) ;
#250 = LOCAL_TIME ( 9, 24, 2.000000000000000000, #116 ) ;
#251 = FACE_OUTER_BOUND ( 'NONE', #5, .T. ) ;
#252 = PLANE ( 'NONE',  #162 ) ;
#253 = EDGE_CURVE ( 'NONE', #31, #187, #42, .T. ) ;
#254 = FACE_OUTER_BOUND ( 'NONE', #39, .T. ) ;
#255 = DIRECTION ( 'NONE',  ( -1.000000000000000000, -0.000000000000000000, -0.000000000000000000 ) ) ;
#256 = ORIENTED_EDGE ( 'NONE', *, *, #258, .F. ) ;
#257 = DIRECTION ( 'NONE',  ( -1.000000000000000000, -0.000000000000000000, -0.000000000000000000 ) ) ;
#258 = EDGE_CURVE ( 'NONE', #187, #235, #203, .T. ) ;
#259 = LOCAL_TIME ( 9, 24, 2.000000000000000000, #37 ) ;
#260 = AXIS2_PLACEMENT_3D ( 'NONE', #81, #129, #27 ) ;
#261 = PERSON_AND_ORGANIZATION ( #325, #71 ) ;
#262 = EDGE_CURVE ( 'NONE', #187, #31, #276, .T. ) ;
#263 = PERSON_AND_ORGANIZATION_ROLE ( 'creator' ) ;
#264 = APPROVAL_ROLE ( '' ) ;
#265 = CARTESIAN_POINT ( 'NONE',  ( -1.614212418857619014, 0.000000000000000000, 0.000000000000000000 ) ) ;
#266 = APPROVAL_STATUS ( 'not_yet_approved' ) ;
#267 = CARTESIAN_POINT ( 'NONE',  ( 1.500000000000000444, 6.349999999999999645, 0.000000000000000000 ) ) ;
#268 = FACE_OUTER_BOUND ( 'NONE', #43, .T. ) ;
#269 = CARTESIAN_POINT ( 'NONE',  ( -1.614212418857619014, 0.000000000000000000, 0.000000000000000000 ) ) ;
#270 = AXIS2_PLACEMENT_3D ( 'NONE', #274, #297, #95 ) ;
#271 = VERTEX_POINT ( 'NONE', #132 ) ;
#272 =( NAMED_UNIT ( * ) PLANE_ANGLE_UNIT ( ) SI_UNIT ( $, .RADIAN. ) );
#273 = DIRECTION ( 'NONE',  ( -1.000000000000000000, -0.000000000000000000, -0.000000000000000000 ) ) ;
#274 = CARTESIAN_POINT ( 'NONE',  ( 0.000000000000000000, 0.000000000000000000, 0.000000000000000000 ) ) ;
#275 = AXIS2_PLACEMENT_3D ( 'NONE', #170, #152, #100 ) ;
#276 = CIRCLE ( 'NONE', #312, 6.349999999999999645 ) ;
#277 = FACE_OUTER_BOUND ( 'NONE', #279, .T. ) ;
#278 = DIRECTION ( 'NONE',  ( 0.000000000000000000, 0.000000000000000000, 1.000000000000000000 ) ) ;
#279 = EDGE_LOOP ( 'NONE', ( #142, #238, #36, #112 ) ) ;
#280 = CARTESIAN_POINT ( 'NONE',  ( 3.000000000000000000, 0.000000000000000000, 12.69999999999999929 ) ) ;
#281 = ORIENTED_EDGE ( 'NONE', *, *, #20, .T. ) ;
#282 = CC_DESIGN_APPROVAL ( #122, ( #89 ) ) ;
#283 = VERTEX_POINT ( 'NONE', #304 ) ;
#284 = APPROVAL_DATE_TIME ( #91, #107 ) ;
#285 = COORDINATED_UNIVERSAL_TIME_OFFSET ( 8, 0, .AHEAD. ) ;
#286 = EDGE_CURVE ( 'NONE', #283, #53, #329, .T. ) ;
#287 = CIRCLE ( 'NONE', #275, 12.69999999999999929 ) ;
#288 = ORIENTED_EDGE ( 'NONE', *, *, #35, .T. ) ;
#289 = CALENDAR_DATE ( 2020, 23, 12 ) ;
#290 = CC_DESIGN_PERSON_AND_ORGANIZATION_ASSIGNMENT ( #261, #65, ( #189 ) ) ;
#291 = DIRECTION ( 'NONE',  ( 0.000000000000000000, 0.000000000000000000, 1.000000000000000000 ) ) ;
#292 = PERSON_AND_ORGANIZATION ( #325, #71 ) ;
#293 = PERSON_AND_ORGANIZATION_ROLE ( 'design_supplier' ) ;
#294 = CARTESIAN_POINT ( 'NONE',  ( -1.500000000000000444, 7.776507174585692163E-16, -6.349999999999999645 ) ) ;
#295 = EDGE_CURVE ( 'NONE', #138, #160, #326, .T. ) ;
#296 = DIRECTION ( 'NONE',  ( -1.000000000000000000, -0.000000000000000000, -0.000000000000000000 ) ) ;
#297 = DIRECTION ( 'NONE',  ( 0.000000000000000000, 0.000000000000000000, 1.000000000000000000 ) ) ;
#298 = CARTESIAN_POINT ( 'NONE',  ( -3.000000000000000000, 1.555301434917138433E-15, -12.69999999999999929 ) ) ;
#299 = APPROVAL_PERSON_ORGANIZATION ( #237, #122, #264 ) ;
#300 = ADVANCED_FACE ( 'NONE', ( #277 ), #176, .T. ) ;
#301 = CARTESIAN_POINT ( 'NONE',  ( -1.614212418857619014, 7.776507174585692163E-16, -6.349999999999999645 ) ) ;
#302 = FACE_OUTER_BOUND ( 'NONE', #244, .T. ) ;
#303 = DIRECTION ( 'NONE',  ( -1.000000000000000000, -0.000000000000000000, -0.000000000000000000 ) ) ;
#304 = CARTESIAN_POINT ( 'NONE',  ( -3.000000000000000000, 0.000000000000000000, 12.69999999999999929 ) ) ;
#305 = EDGE_CURVE ( 'NONE', #218, #53, #174, .T. ) ;
#306 = CYLINDRICAL_SURFACE ( 'NONE', #260, 6.349999999999999645 ) ;
#307 = EDGE_CURVE ( 'NONE', #218, #246, #141, .T. ) ;
#308 = DIRECTION ( 'NONE',  ( 0.000000000000000000, 0.000000000000000000, -1.000000000000000000 ) ) ;
#309 = CIRCLE ( 'NONE', #51, 6.349999999999999645 ) ;
#310 = CARTESIAN_POINT ( 'NONE',  ( 1.500000000000000888, 0.000000000000000000, 0.000000000000000000 ) ) ;
#311 = EDGE_LOOP ( 'NONE', ( #335, #8, #184, #120 ) ) ;
#312 = AXIS2_PLACEMENT_3D ( 'NONE', #225, #104, #204 ) ;
#313 = ORIENTED_EDGE ( 'NONE', *, *, #98, .F. ) ;
#314 = AXIS2_PLACEMENT_3D ( 'NONE', #265, #296, #12 ) ;
#315 = FACE_OUTER_BOUND ( 'NONE', #311, .T. ) ;
#316 = ADVANCED_FACE ( 'NONE', ( #123, #219 ), #221, .F. ) ;
#317 = DIRECTION ( 'NONE',  ( 0.000000000000000000, 0.000000000000000000, 1.000000000000000000 ) ) ;
#318 = EDGE_LOOP ( 'NONE', ( #233, #14 ) ) ;
#319 = DIRECTION ( 'NONE',  ( 1.000000000000000000, 0.000000000000000000, 0.000000000000000000 ) ) ;
#320 = PLANE ( 'NONE',  #29 ) ;
#321 = CYLINDRICAL_SURFACE ( 'NONE', #136, 6.349999999999999645 ) ;
#322 = VECTOR ( 'NONE', #45, 1000.000000000000000 ) ;
#323 = CARTESIAN_POINT ( 'NONE',  ( -2.999999999999999556, 7.776507174585692163E-16, -6.349999999999999645 ) ) ;
#324 = APPROVAL_PERSON_ORGANIZATION ( #292, #211, #191 ) ;
#325 = PERSON ( 'UNSPECIFIED', 'UNSPECIFIED', 'UNSPECIFIED', ('UNSPECIFIED'), ('UNSPECIFIED'), ('UNSPECIFIED') ) ;
#326 = LINE ( 'NONE', #80, #153 ) ;
#327 = ADVANCED_FACE ( 'NONE', ( #302 ), #321, .F. ) ;
#328 = CARTESIAN_POINT ( 'NONE',  ( -1.614212418857619014, 0.000000000000000000, 6.349999999999999645 ) ) ;
#329 = CIRCLE ( 'NONE', #111, 12.69999999999999929 ) ;
#330 = DIRECTION ( 'NONE',  ( 0.000000000000000000, 0.000000000000000000, 1.000000000000000000 ) ) ;
#331 = DIRECTION ( 'NONE',  ( -0.000000000000000000, 0.000000000000000000, 1.000000000000000000 ) ) ;
#332 = CARTESIAN_POINT ( 'NONE',  ( 3.000000000000000000, 1.555301434917138433E-15, -12.69999999999999929 ) ) ;
#333 = PRODUCT_RELATED_PRODUCT_CATEGORY ( 'detail', '', ( #137 ) ) ;
#334 = AXIS2_PLACEMENT_3D ( 'NONE', #245, #319, #74 ) ;
#335 = ORIENTED_EDGE ( 'NONE', *, *, #295, .F. ) ;
ENDSEC;
END-ISO-10303-21;
